ISO-10303-21;
HEADER;
FILE_DESCRIPTION (( 'STEP AP214' ),
    '1' );
FILE_NAME ('BS1ISOK200219 FULLVAC.STEP',
    '2024-05-22T13:22:28',
    ( '' ),
    ( '' ),
    'SwSTEP 2.0',
    'SolidWorks 2017',
    '' );
FILE_SCHEMA (( 'AUTOMOTIVE_DESIGN' ));
ENDSEC;

DATA;
#1 = AXIS2_PLACEMENT_3D ( 'NONE', #47, #251, #76 ) ;
#2 = FACE_OUTER_BOUND ( 'NONE', #232, .T. ) ;
#3 = CONICAL_SURFACE ( 'NONE', #121, 119.2000000000000000, 0.7853981633974450600 ) ;
#4 = ORIENTED_EDGE ( 'NONE', *, *, #65, .F. ) ;
#5 = MANIFOLD_SOLID_BREP ( 'Chanfrein1', #114 ) ;
#6 = PLANE ( 'NONE',  #95 ) ;
#7 = DIRECTION ( 'NONE',  ( 0.0000000000000000000, -1.000000000000000000, -0.0000000000000000000 ) ) ;
#8 = AXIS2_PLACEMENT_3D ( 'NONE', #128, #319, #293 ) ;
#9 = CARTESIAN_POINT ( 'NONE',  ( 0.0000000000000000000, -7.485609090549119500, 119.7321428571428800 ) ) ;
#10 = CARTESIAN_POINT ( 'NONE',  ( 0.0000000000000000000, -6.000000000000040900, 0.0000000000000000000 ) ) ;
#11 = EDGE_LOOP ( 'NONE', ( #185 ) ) ;
#12 = ORIENTED_EDGE ( 'NONE', *, *, #89, .F. ) ;
#13 = DIRECTION ( 'NONE',  ( 0.0000000000000000000, 0.0000000000000000000, -1.000000000000000000 ) ) ;
#14 = CARTESIAN_POINT ( 'NONE',  ( 0.0000000000000000000, -2.216117818584990600, 0.0000000000000000000 ) ) ;
#15 = DIRECTION ( 'NONE',  ( 0.0000000000000000000, 1.000000000000000000, 0.0000000000000000000 ) ) ;
#16 = VERTEX_POINT ( 'NONE', #265 ) ;
#17 = CIRCLE ( 'NONE', #197, 119.7321428571428800 ) ;
#18 = CARTESIAN_POINT ( 'NONE',  ( 0.0000000000000000000, -2.216117818584989700, 0.0000000000000000000 ) ) ;
#19 = ORIENTED_EDGE ( 'NONE', *, *, #23, .T. ) ;
#20 = DIRECTION ( 'NONE',  ( 0.0000000000000000000, 0.0000000000000000000, 1.000000000000000000 ) ) ;
#21 = UNCERTAINTY_MEASURE_WITH_UNIT (LENGTH_MEASURE( 1.000000000000000100E-005 ), #278, 'distance_accuracy_value', 'NONE');
#22 = ORIENTED_EDGE ( 'NONE', *, *, #202, .F. ) ;
#23 = EDGE_CURVE ( 'NONE', #286, #286, #351, .T. ) ;
#24 = STYLED_ITEM ( 'NONE', ( #78 ), #61 ) ;
#25 = EDGE_CURVE ( 'NONE', #139, #139, #321, .T. ) ;
#26 = VERTEX_POINT ( 'NONE', #239 ) ;
#27 = FACE_BOUND ( 'NONE', #264, .T. ) ;
#28 = ORIENTED_EDGE ( 'NONE', *, *, #252, .T. ) ;
#29 = PLANE ( 'NONE',  #214 ) ;
#30 = FACE_OUTER_BOUND ( 'NONE', #211, .T. ) ;
#31 = EDGE_LOOP ( 'NONE', ( #143 ) ) ;
#32 = DIRECTION ( 'NONE',  ( 0.0000000000000000000, 0.0000000000000000000, -1.000000000000000000 ) ) ;
#33 = ADVANCED_FACE ( 'NONE', ( #27, #101 ), #29, .T. ) ;
#34 = CARTESIAN_POINT ( 'NONE',  ( 0.0000000000000000000, -2.514390909450881000, 0.0000000000000000000 ) ) ;
#35 = CYLINDRICAL_SURFACE ( 'NONE', #348, 120.0000000000000000 ) ;
#36 = MECHANICAL_DESIGN_GEOMETRIC_PRESENTATION_REPRESENTATION (  '', ( #24 ), #327 ) ;
#37 = CARTESIAN_POINT ( 'NONE',  ( 0.0000000000000000000, -12.00000000000000000, 0.0000000000000000000 ) ) ;
#38 = EDGE_CURVE ( 'NONE', #199, #199, #247, .T. ) ;
#39 = DIRECTION ( 'NONE',  ( 0.0000000000000000000, 0.0000000000000000000, 1.000000000000000000 ) ) ;
#40 = CARTESIAN_POINT ( 'NONE',  ( 0.0000000000000000000, -7.783882181415013000, 0.0000000000000000000 ) ) ;
#41 = AXIS2_PLACEMENT_3D ( 'NONE', #315, #292, #156 ) ;
#42 = DIRECTION ( 'NONE',  ( 0.0000000000000000000, 1.000000000000000000, 0.0000000000000000000 ) ) ;
#43 = EDGE_LOOP ( 'NONE', ( #64 ) ) ;
#44 = DIRECTION ( 'NONE',  ( 0.0000000000000000000, 0.0000000000000000000, 1.000000000000000000 ) ) ;
#45 = ORIENTED_EDGE ( 'NONE', *, *, #291, .F. ) ;
#46 = CARTESIAN_POINT ( 'NONE',  ( 0.0000000000000000000, -9.999999999999998200, 117.5000000000000000 ) ) ;
#47 = CARTESIAN_POINT ( 'NONE',  ( 0.0000000000000000000, 0.0000000000000000000, 0.0000000000000000000 ) ) ;
#48 = DIRECTION ( 'NONE',  ( 0.0000000000000000000, -1.000000000000000000, 0.0000000000000000000 ) ) ;
#49 = VERTEX_POINT ( 'NONE', #151 ) ;
#50 = SURFACE_STYLE_FILL_AREA ( #248 ) ;
#51 = EDGE_LOOP ( 'NONE', ( #302 ) ) ;
#52 = AXIS2_PLACEMENT_3D ( 'NONE', #110, #191, #225 ) ;
#53 = DIRECTION ( 'NONE',  ( 0.0000000000000000000, 0.0000000000000000000, 1.000000000000000000 ) ) ;
#54 = EDGE_LOOP ( 'NONE', ( #109 ) ) ;
#55 = ADVANCED_FACE ( 'NONE', ( #344, #141 ), #3, .T. ) ;
#56 = FACE_OUTER_BOUND ( 'NONE', #275, .T. ) ;
#57 = PRESENTATION_LAYER_ASSIGNMENT (  '', '', ( #169 ) ) ;
#58 = CARTESIAN_POINT ( 'NONE',  ( 0.0000000000000000000, -1.734723475976807100E-015, 0.0000000000000000000 ) ) ;
#59 = SURFACE_STYLE_FILL_AREA ( #69 ) ;
#60 = CIRCLE ( 'NONE', #41, 120.0000000000000000 ) ;
#61 = ADVANCED_BREP_SHAPE_REPRESENTATION ( 'BS1ISOK200219 FULLVAC', ( #5, #8 ), #81 ) ;
#62 = DIRECTION ( 'NONE',  ( 0.0000000000000000000, 0.0000000000000000000, 1.000000000000000000 ) ) ;
#63 = FACE_OUTER_BOUND ( 'NONE', #31, .T. ) ;
#64 = ORIENTED_EDGE ( 'NONE', *, *, #177, .F. ) ;
#65 = EDGE_CURVE ( 'NONE', #49, #49, #279, .T. ) ;
#66 = DIRECTION ( 'NONE',  ( 0.0000000000000000000, 0.0000000000000000000, -1.000000000000000000 ) ) ;
#67 = DIRECTION ( 'NONE',  ( 0.0000000000000000000, 0.0000000000000000000, 1.000000000000000000 ) ) ;
#68 = CARTESIAN_POINT ( 'NONE',  ( 0.0000000000000000000, -7.783882181415013000, 0.0000000000000000000 ) ) ;
#69 = FILL_AREA_STYLE ('',( #186 ) ) ;
#70 = FACE_OUTER_BOUND ( 'NONE', #163, .T. ) ;
#71 = ORIENTED_EDGE ( 'NONE', *, *, #252, .F. ) ;
#72 = DIRECTION ( 'NONE',  ( 0.0000000000000000000, 0.0000000000000000000, -1.000000000000000000 ) ) ;
#73 = AXIS2_PLACEMENT_3D ( 'NONE', #102, #240, #66 ) ;
#74 = FACE_OUTER_BOUND ( 'NONE', #216, .T. ) ;
#75 = AXIS2_PLACEMENT_3D ( 'NONE', #117, #325, #305 ) ;
#76 = DIRECTION ( 'NONE',  ( 0.0000000000000000000, 0.0000000000000000000, -1.000000000000000000 ) ) ;
#77 =( NAMED_UNIT ( * ) SI_UNIT ( $, .STERADIAN. ) SOLID_ANGLE_UNIT ( ) );
#78 = PRESENTATION_STYLE_ASSIGNMENT (( #107 ) ) ;
#79 = EDGE_LOOP ( 'NONE', ( #217 ) ) ;
#80 = SURFACE_SIDE_STYLE ('',( #50 ) ) ;
#81 =( GEOMETRIC_REPRESENTATION_CONTEXT ( 3 ) GLOBAL_UNCERTAINTY_ASSIGNED_CONTEXT ( ( #272 ) ) GLOBAL_UNIT_ASSIGNED_CONTEXT ( ( #262, #218, #290 ) ) REPRESENTATION_CONTEXT ( 'NONE', 'WORKASPACE' ) );
#82 = ADVANCED_FACE ( 'NONE', ( #215, #210 ), #184, .F. ) ;
#83 = CIRCLE ( 'NONE', #343, 120.0000000000000000 ) ;
#84 = FACE_OUTER_BOUND ( 'NONE', #174, .T. ) ;
#85 = AXIS2_PLACEMENT_3D ( 'NONE', #136, #179, #39 ) ;
#86 = EDGE_LOOP ( 'NONE', ( #115 ) ) ;
#87 = CARTESIAN_POINT ( 'NONE',  ( 0.0000000000000000000, -9.999999999999998200, 0.0000000000000000000 ) ) ;
#88 = CARTESIAN_POINT ( 'NONE',  ( 0.0000000000000000000, -12.00000000000000000, 0.0000000000000000000 ) ) ;
#89 = EDGE_CURVE ( 'NONE', #236, #236, #200, .T. ) ;
#90 = FACE_OUTER_BOUND ( 'NONE', #352, .T. ) ;
#91 = CARTESIAN_POINT ( 'NONE',  ( 101.8499999999999900, -7.000000000000000000, 0.0000000000000000000 ) ) ;
#92 = PRODUCT_DEFINITION_CONTEXT ( 'detailed design', #132, 'design' ) ;
#93 = TOROIDAL_SURFACE ( 'NONE', #85, 120.0000000000000000, 2.499999999999998700 ) ;
#94 = FACE_BOUND ( 'NONE', #54, .T. ) ;
#95 = AXIS2_PLACEMENT_3D ( 'NONE', #149, #333, #181 ) ;
#96 = AXIS2_PLACEMENT_3D ( 'NONE', #146, #231, #62 ) ;
#97 = CARTESIAN_POINT ( 'NONE',  ( 0.0000000000000000000, -10.00000000000000900, -109.7500000000000300 ) ) ;
#98 = DIRECTION ( 'NONE',  ( 0.0000000000000000000, 0.0000000000000000000, 1.000000000000000000 ) ) ;
#99 = CARTESIAN_POINT ( 'NONE',  ( 0.0000000000000000000, 0.0000000000000000000, -106.5750000000000000 ) ) ;
#100 = DIRECTION ( 'NONE',  ( 0.0000000000000000000, 0.0000000000000000000, 1.000000000000000000 ) ) ;
#101 = FACE_OUTER_BOUND ( 'NONE', #243, .T. ) ;
#102 = CARTESIAN_POINT ( 'NONE',  ( 0.0000000000000000000, 0.0000000000000000000, 0.0000000000000000000 ) ) ;
#103 =( NAMED_UNIT ( * ) SI_UNIT ( $, .STERADIAN. ) SOLID_ANGLE_UNIT ( ) );
#104 = EDGE_CURVE ( 'NONE', #26, #26, #120, .T. ) ;
#105 = DIRECTION ( 'NONE',  ( 0.0000000000000000000, 0.0000000000000000000, 1.000000000000000000 ) ) ;
#106 = APPLICATION_PROTOCOL_DEFINITION ( 'draft international standard', 'automotive_design', 1998, #132 ) ;
#107 = SURFACE_STYLE_USAGE ( .BOTH. , #270 ) ;
#108 = FACE_OUTER_BOUND ( 'NONE', #165, .T. ) ;
#109 = ORIENTED_EDGE ( 'NONE', *, *, #65, .T. ) ;
#110 = CARTESIAN_POINT ( 'NONE',  ( 0.0000000000000000000, -7.000000000000000000, 0.0000000000000000000 ) ) ;
#111 = ADVANCED_FACE ( 'NONE', ( #274, #255 ), #124, .T. ) ;
#112 =( GEOMETRIC_REPRESENTATION_CONTEXT ( 3 ) GLOBAL_UNCERTAINTY_ASSIGNED_CONTEXT ( ( #21 ) ) GLOBAL_UNIT_ASSIGNED_CONTEXT ( ( #278, #138, #77 ) ) REPRESENTATION_CONTEXT ( 'NONE', 'WORKASPACE' ) );
#113 = CONICAL_SURFACE ( 'NONE', #147, 120.0000000000000000, 0.7853981633974450600 ) ;
#114 = CLOSED_SHELL ( 'NONE', ( #226, #349, #82, #116, #33, #111, #55, #277, #195, #298, #166, #119, #164, #204, #281 ) ) ;
#115 = ORIENTED_EDGE ( 'NONE', *, *, #291, .T. ) ;
#116 = ADVANCED_FACE ( 'NONE', ( #314, #301 ), #133, .T. ) ;
#117 = CARTESIAN_POINT ( 'NONE',  ( 0.0000000000000000000, -10.00000000000000900, 0.0000000000000000000 ) ) ;
#118 = VERTEX_POINT ( 'NONE', #152 ) ;
#119 = ADVANCED_FACE ( 'NONE', ( #297, #190 ), #260, .T. ) ;
#120 = CIRCLE ( 'NONE', #129, 119.7321428571428800 ) ;
#121 = AXIS2_PLACEMENT_3D ( 'NONE', #58, #230, #142 ) ;
#122 = DIRECTION ( 'NONE',  ( 0.0000000000000000000, 0.0000000000000000000, -1.000000000000000000 ) ) ;
#123 = ORIENTED_EDGE ( 'NONE', *, *, #320, .F. ) ;
#124 = PLANE ( 'NONE',  #155 ) ;
#125 = TOROIDAL_SURFACE ( 'NONE', #331, 119.7000000000000000, 0.2999999999999978800 ) ;
#126 = EDGE_LOOP ( 'NONE', ( #227 ) ) ;
#127 = ORIENTED_EDGE ( 'NONE', *, *, #104, .F. ) ;
#128 = CARTESIAN_POINT ( 'NONE',  ( 0.0000000000000000000, 0.0000000000000000000, 0.0000000000000000000 ) ) ;
#129 = AXIS2_PLACEMENT_3D ( 'NONE', #34, #258, #284 ) ;
#130 = DIRECTION ( 'NONE',  ( 0.0000000000000000000, 1.000000000000000000, 0.0000000000000000000 ) ) ;
#131 = CARTESIAN_POINT ( 'NONE',  ( 0.0000000000000000000, -7.485609090549119500, 0.0000000000000000000 ) ) ;
#132 = APPLICATION_CONTEXT ( 'automotive_design' ) ;
#133 = PLANE ( 'NONE',  #175 ) ;
#134 = CIRCLE ( 'NONE', #1, 106.5750000000000000 ) ;
#135 = CARTESIAN_POINT ( 'NONE',  ( 0.0000000000000000000, -6.000000000000040900, 0.0000000000000000000 ) ) ;
#136 = CARTESIAN_POINT ( 'NONE',  ( 0.0000000000000000000, -5.000000000000001800, 0.0000000000000000000 ) ) ;
#137 = ORIENTED_EDGE ( 'NONE', *, *, #235, .T. ) ;
#138 =( NAMED_UNIT ( * ) PLANE_ANGLE_UNIT ( ) SI_UNIT ( $, .RADIAN. ) );
#139 = VERTEX_POINT ( 'NONE', #46 ) ;
#140 = ORIENTED_EDGE ( 'NONE', *, *, #150, .F. ) ;
#141 = FACE_BOUND ( 'NONE', #51, .T. ) ;
#142 = DIRECTION ( 'NONE',  ( 0.0000000000000000000, 0.0000000000000000000, -1.000000000000000000 ) ) ;
#143 = ORIENTED_EDGE ( 'NONE', *, *, #235, .F. ) ;
#144 = AXIS2_PLACEMENT_3D ( 'NONE', #203, #170, #282 ) ;
#145 = DIRECTION ( 'NONE',  ( 0.0000000000000000000, 0.0000000000000000000, 1.000000000000000000 ) ) ;
#146 = CARTESIAN_POINT ( 'NONE',  ( 0.0000000000000000000, -1.734723475976807100E-015, 0.0000000000000000000 ) ) ;
#147 = AXIS2_PLACEMENT_3D ( 'NONE', #317, #154, #105 ) ;
#148 = CIRCLE ( 'NONE', #285, 120.0000000000000000 ) ;
#149 = CARTESIAN_POINT ( 'NONE',  ( 119.2000000000000000, -12.00000000000000000, 0.0000000000000000000 ) ) ;
#150 = EDGE_CURVE ( 'NONE', #324, #324, #60, .T. ) ;
#151 = CARTESIAN_POINT ( 'NONE',  ( 0.0000000000000000000, -12.00000000000000000, 119.2000000000000000 ) ) ;
#152 = CARTESIAN_POINT ( 'NONE',  ( 0.0000000000000000000, -7.000000000000000000, -107.5749999999999500 ) ) ;
#153 = CARTESIAN_POINT ( 'NONE',  ( 0.0000000000000000000, -7.000000000000006200, -109.7500000000000300 ) ) ;
#154 = DIRECTION ( 'NONE',  ( 0.0000000000000000000, 1.000000000000000000, 0.0000000000000000000 ) ) ;
#155 = AXIS2_PLACEMENT_3D ( 'NONE', #308, #329, #309 ) ;
#156 = DIRECTION ( 'NONE',  ( 0.0000000000000000000, 0.0000000000000000000, 1.000000000000000000 ) ) ;
#157 = DIRECTION ( 'NONE',  ( 0.0000000000000000000, 0.0000000000000000000, -1.000000000000000000 ) ) ;
#158 = EDGE_CURVE ( 'NONE', #254, #254, #17, .T. ) ;
#159 = PRODUCT_DEFINITION ( 'UNKNOWN', '', #171, #92 ) ;
#160 = PRODUCT_CONTEXT ( 'NONE', #316, 'mechanical' ) ;
#161 = DIRECTION ( 'NONE',  ( 0.0000000000000000000, -1.000000000000000000, 0.0000000000000000000 ) ) ;
#162 = ORIENTED_EDGE ( 'NONE', *, *, #202, .T. ) ;
#163 = EDGE_LOOP ( 'NONE', ( #311 ) ) ;
#164 = ADVANCED_FACE ( 'NONE', ( #94, #30 ), #113, .T. ) ;
#165 = EDGE_LOOP ( 'NONE', ( #162 ) ) ;
#166 = ADVANCED_FACE ( 'NONE', ( #108, #237 ), #173, .T. ) ;
#167 = AXIS2_PLACEMENT_3D ( 'NONE', #340, #188, #13 ) ;
#168 = VERTEX_POINT ( 'NONE', #241 ) ;
#169 = STYLED_ITEM ( 'NONE', ( #253 ), #5 ) ;
#170 = DIRECTION ( 'NONE',  ( 0.0000000000000000000, 1.000000000000000000, 0.0000000000000000000 ) ) ;
#171 = PRODUCT_DEFINITION_FORMATION_WITH_SPECIFIED_SOURCE ( 'ANY', '', #326, .NOT_KNOWN. ) ;
#172 = DIRECTION ( 'NONE',  ( 0.0000000000000000000, 1.000000000000000000, 0.0000000000000000000 ) ) ;
#173 = TOROIDAL_SURFACE ( 'NONE', #234, 119.7000000000000000, 0.2999999999999978800 ) ;
#174 = EDGE_LOOP ( 'NONE', ( #220 ) ) ;
#175 = AXIS2_PLACEMENT_3D ( 'NONE', #295, #7, #72 ) ;
#176 = SHAPE_DEFINITION_REPRESENTATION ( #273, #61 ) ;
#177 = EDGE_CURVE ( 'NONE', #283, #283, #288, .T. ) ;
#178 = EDGE_LOOP ( 'NONE', ( #22 ) ) ;
#179 = DIRECTION ( 'NONE',  ( 0.0000000000000000000, 1.000000000000000000, 0.0000000000000000000 ) ) ;
#180 = AXIS2_PLACEMENT_3D ( 'NONE', #183, #130, #318 ) ;
#181 = DIRECTION ( 'NONE',  ( 0.0000000000000000000, 0.0000000000000000000, -1.000000000000000000 ) ) ;
#182 = CARTESIAN_POINT ( 'NONE',  ( 0.0000000000000000000, -7.783882181415013000, 120.0000000000000000 ) ) ;
#183 = CARTESIAN_POINT ( 'NONE',  ( 0.0000000000000000000, -11.99999999999999800, 0.0000000000000000000 ) ) ;
#184 = CYLINDRICAL_SURFACE ( 'NONE', #144, 117.5000000000000000 ) ;
#185 = ORIENTED_EDGE ( 'NONE', *, *, #150, .T. ) ;
#186 = FILL_AREA_STYLE_COLOUR ( '', #209 ) ;
#187 = ORIENTED_EDGE ( 'NONE', *, *, #158, .F. ) ;
#188 = DIRECTION ( 'NONE',  ( -0.0000000000000000000, -1.000000000000000000, -0.0000000000000000000 ) ) ;
#189 = FACE_OUTER_BOUND ( 'NONE', #201, .T. ) ;
#190 = FACE_OUTER_BOUND ( 'NONE', #178, .T. ) ;
#191 = DIRECTION ( 'NONE',  ( 0.0000000000000000000, 1.000000000000000000, 0.0000000000000000000 ) ) ;
#192 = AXIS2_PLACEMENT_3D ( 'NONE', #135, #161, #157 ) ;
#193 = MECHANICAL_DESIGN_GEOMETRIC_PRESENTATION_REPRESENTATION (  '', ( #169 ), #112 ) ;
#194 = SURFACE_STYLE_USAGE ( .BOTH. , #80 ) ;
#195 = ADVANCED_FACE ( 'NONE', ( #84, #63 ), #125, .T. ) ;
#196 = EDGE_LOOP ( 'NONE', ( #140 ) ) ;
#197 = AXIS2_PLACEMENT_3D ( 'NONE', #131, #337, #98 ) ;
#198 = FILL_AREA_STYLE_COLOUR ( '', #342 ) ;
#199 = VERTEX_POINT ( 'NONE', #289 ) ;
#200 = CIRCLE ( 'NONE', #263, 109.7500000000000300 ) ;
#201 = EDGE_LOOP ( 'NONE', ( #4 ) ) ;
#202 = EDGE_CURVE ( 'NONE', #242, #242, #83, .T. ) ;
#203 = CARTESIAN_POINT ( 'NONE',  ( 0.0000000000000000000, -11.99999999999999800, 0.0000000000000000000 ) ) ;
#204 = ADVANCED_FACE ( 'NONE', ( #56, #300 ), #332, .F. ) ;
#205 = CARTESIAN_POINT ( 'NONE',  ( 0.0000000000000000000, -7.000000000000006200, 0.0000000000000000000 ) ) ;
#206 = DIRECTION ( 'NONE',  ( 0.0000000000000000000, 0.0000000000000000000, 1.000000000000000000 ) ) ;
#207 = EDGE_CURVE ( 'NONE', #224, #224, #134, .T. ) ;
#208 = DIRECTION ( 'NONE',  ( 0.0000000000000000000, 1.000000000000000000, 0.0000000000000000000 ) ) ;
#209 = COLOUR_RGB ( '',0.7921568627450980000, 0.8196078431372548800, 0.9333333333333333500 ) ;
#210 = FACE_OUTER_BOUND ( 'NONE', #244, .T. ) ;
#211 = EDGE_LOOP ( 'NONE', ( #123 ) ) ;
#212 = CIRCLE ( 'NONE', #280, 120.0000000000000000 ) ;
#213 = DIRECTION ( 'NONE',  ( 0.0000000000000000000, 0.0000000000000000000, 1.000000000000000000 ) ) ;
#214 = AXIS2_PLACEMENT_3D ( 'NONE', #91, #304, #32 ) ;
#215 = FACE_OUTER_BOUND ( 'NONE', #336, .T. ) ;
#216 = EDGE_LOOP ( 'NONE', ( #347 ) ) ;
#217 = ORIENTED_EDGE ( 'NONE', *, *, #23, .F. ) ;
#218 =( NAMED_UNIT ( * ) PLANE_ANGLE_UNIT ( ) SI_UNIT ( $, .RADIAN. ) );
#219 = DIRECTION ( 'NONE',  ( 0.0000000000000000000, 1.000000000000000000, 0.0000000000000000000 ) ) ;
#220 = ORIENTED_EDGE ( 'NONE', *, *, #104, .T. ) ;
#221 = PRODUCT_RELATED_PRODUCT_CATEGORY ( 'part', '', ( #326 ) ) ;
#222 =( NAMED_UNIT ( * ) PLANE_ANGLE_UNIT ( ) SI_UNIT ( $, .RADIAN. ) );
#223 = CARTESIAN_POINT ( 'NONE',  ( 0.0000000000000000000, -11.99999999999999800, 0.0000000000000000000 ) ) ;
#224 = VERTEX_POINT ( 'NONE', #99 ) ;
#225 = DIRECTION ( 'NONE',  ( 0.0000000000000000000, 0.0000000000000000000, -1.000000000000000000 ) ) ;
#226 = ADVANCED_FACE ( 'NONE', ( #70, #310 ), #246, .F. ) ;
#227 = ORIENTED_EDGE ( 'NONE', *, *, #207, .T. ) ;
#228 = CONICAL_SURFACE ( 'NONE', #192, 106.5750000000000000, 0.7853981633974412800 ) ;
#229 = EDGE_LOOP ( 'NONE', ( #354 ) ) ;
#230 = DIRECTION ( 'NONE',  ( -0.0000000000000000000, -1.000000000000000000, -0.0000000000000000000 ) ) ;
#231 = DIRECTION ( 'NONE',  ( 0.0000000000000000000, 1.000000000000000000, 0.0000000000000000000 ) ) ;
#232 = EDGE_LOOP ( 'NONE', ( #71 ) ) ;
#233 = EDGE_LOOP ( 'NONE', ( #269 ) ) ;
#234 = AXIS2_PLACEMENT_3D ( 'NONE', #40, #313, #330 ) ;
#235 = EDGE_CURVE ( 'NONE', #16, #16, #148, .T. ) ;
#236 = VERTEX_POINT ( 'NONE', #153 ) ;
#237 = FACE_OUTER_BOUND ( 'NONE', #328, .T. ) ;
#238 = ORIENTED_EDGE ( 'NONE', *, *, #25, .T. ) ;
#239 = CARTESIAN_POINT ( 'NONE',  ( 0.0000000000000000000, -2.514390909450881000, 119.7321428571428800 ) ) ;
#240 = DIRECTION ( 'NONE',  ( -0.0000000000000000000, -1.000000000000000000, -0.0000000000000000000 ) ) ;
#241 = CARTESIAN_POINT ( 'NONE',  ( 0.0000000000000000000, -11.19999999999999900, 120.0000000000000000 ) ) ;
#242 = VERTEX_POINT ( 'NONE', #182 ) ;
#243 = EDGE_LOOP ( 'NONE', ( #12 ) ) ;
#244 = EDGE_LOOP ( 'NONE', ( #45 ) ) ;
#245 = DIRECTION ( 'NONE',  ( 0.0000000000000000000, 0.0000000000000000000, -1.000000000000000000 ) ) ;
#246 = CYLINDRICAL_SURFACE ( 'NONE', #167, 109.7500000000000300 ) ;
#247 = CIRCLE ( 'NONE', #96, 119.2000000000000000 ) ;
#248 = FILL_AREA_STYLE ('',( #198 ) ) ;
#249 = ORIENTED_EDGE ( 'NONE', *, *, #207, .F. ) ;
#250 = DIRECTION ( 'NONE',  ( 0.0000000000000000000, 1.000000000000000000, 0.0000000000000000000 ) ) ;
#251 = DIRECTION ( 'NONE',  ( 0.0000000000000000000, -1.000000000000000000, 0.0000000000000000000 ) ) ;
#252 = EDGE_CURVE ( 'NONE', #118, #118, #341, .T. ) ;
#253 = PRESENTATION_STYLE_ASSIGNMENT (( #194 ) ) ;
#254 = VERTEX_POINT ( 'NONE', #9 ) ;
#255 = FACE_OUTER_BOUND ( 'NONE', #229, .T. ) ;
#256 = DIRECTION ( 'NONE',  ( 0.0000000000000000000, 1.000000000000000000, 0.0000000000000000000 ) ) ;
#257 = EDGE_LOOP ( 'NONE', ( #249 ) ) ;
#258 = DIRECTION ( 'NONE',  ( 0.0000000000000000000, 1.000000000000000000, 0.0000000000000000000 ) ) ;
#259 = FACE_BOUND ( 'NONE', #43, .T. ) ;
#260 = CYLINDRICAL_SURFACE ( 'NONE', #180, 120.0000000000000000 ) ;
#261 = AXIS2_PLACEMENT_3D ( 'NONE', #37, #42, #67 ) ;
#262 =( LENGTH_UNIT ( ) NAMED_UNIT ( * ) SI_UNIT ( .MILLI., .METRE. ) );
#263 = AXIS2_PLACEMENT_3D ( 'NONE', #205, #208, #122 ) ;
#264 = EDGE_LOOP ( 'NONE', ( #28 ) ) ;
#265 = CARTESIAN_POINT ( 'NONE',  ( 0.0000000000000000000, -2.216117818584989700, 120.0000000000000000 ) ) ;
#266 = DIRECTION ( 'NONE',  ( 0.0000000000000000000, 1.000000000000000000, 0.0000000000000000000 ) ) ;
#267 = AXIS2_PLACEMENT_3D ( 'NONE', #10, #48, #245 ) ;
#268 = FACE_OUTER_BOUND ( 'NONE', #196, .T. ) ;
#269 = ORIENTED_EDGE ( 'NONE', *, *, #320, .T. ) ;
#270 = SURFACE_SIDE_STYLE ('',( #59 ) ) ;
#271 = PRESENTATION_LAYER_ASSIGNMENT (  '', '', ( #24 ) ) ;
#272 = UNCERTAINTY_MEASURE_WITH_UNIT (LENGTH_MEASURE( 1.000000000000000100E-005 ), #262, 'distance_accuracy_value', 'NONE');
#273 = PRODUCT_DEFINITION_SHAPE ( 'NONE', 'NONE',  #159 ) ;
#274 = FACE_BOUND ( 'NONE', #126, .T. ) ;
#275 = EDGE_LOOP ( 'NONE', ( #323 ) ) ;
#276 = EDGE_LOOP ( 'NONE', ( #127 ) ) ;
#277 = ADVANCED_FACE ( 'NONE', ( #90, #268 ), #35, .T. ) ;
#278 =( LENGTH_UNIT ( ) NAMED_UNIT ( * ) SI_UNIT ( .MILLI., .METRE. ) );
#279 = CIRCLE ( 'NONE', #345, 119.2000000000000000 ) ;
#280 = AXIS2_PLACEMENT_3D ( 'NONE', #312, #219, #213 ) ;
#281 = ADVANCED_FACE ( 'NONE', ( #2, #259 ), #228, .F. ) ;
#282 = DIRECTION ( 'NONE',  ( 0.0000000000000000000, 0.0000000000000000000, 1.000000000000000000 ) ) ;
#283 = VERTEX_POINT ( 'NONE', #335 ) ;
#284 = DIRECTION ( 'NONE',  ( 0.0000000000000000000, 0.0000000000000000000, 1.000000000000000000 ) ) ;
#285 = AXIS2_PLACEMENT_3D ( 'NONE', #18, #15, #20 ) ;
#286 = VERTEX_POINT ( 'NONE', #97 ) ;
#287 = CARTESIAN_POINT ( 'NONE',  ( 0.0000000000000000000, -0.8000000000000020400, 120.0000000000000000 ) ) ;
#288 = CIRCLE ( 'NONE', #267, 106.5750000000000000 ) ;
#289 = CARTESIAN_POINT ( 'NONE',  ( 0.0000000000000000000, -1.734723475976807100E-015, 119.2000000000000000 ) ) ;
#290 =( NAMED_UNIT ( * ) SI_UNIT ( $, .STERADIAN. ) SOLID_ANGLE_UNIT ( ) );
#291 = EDGE_CURVE ( 'NONE', #353, #353, #350, .T. ) ;
#292 = DIRECTION ( 'NONE',  ( 0.0000000000000000000, 1.000000000000000000, 0.0000000000000000000 ) ) ;
#293 = DIRECTION ( 'NONE',  ( 1.000000000000000000, 0.0000000000000000000, 0.0000000000000000000 ) ) ;
#294 = DIRECTION ( 'NONE',  ( 0.0000000000000000000, 1.000000000000000000, 0.0000000000000000000 ) ) ;
#295 = CARTESIAN_POINT ( 'NONE',  ( 117.5000000000000000, -10.00000000000000000, 0.0000000000000000000 ) ) ;
#296 =( LENGTH_UNIT ( ) NAMED_UNIT ( * ) SI_UNIT ( .MILLI., .METRE. ) );
#297 = FACE_OUTER_BOUND ( 'NONE', #233, .T. ) ;
#298 = ADVANCED_FACE ( 'NONE', ( #74, #346 ), #93, .F. ) ;
#299 = FACE_BOUND ( 'NONE', #86, .T. ) ;
#300 = FACE_OUTER_BOUND ( 'NONE', #257, .T. ) ;
#301 = FACE_BOUND ( 'NONE', #334, .T. ) ;
#302 = ORIENTED_EDGE ( 'NONE', *, *, #38, .F. ) ;
#303 = UNCERTAINTY_MEASURE_WITH_UNIT (LENGTH_MEASURE( 1.000000000000000100E-005 ), #296, 'distance_accuracy_value', 'NONE');
#304 = DIRECTION ( 'NONE',  ( 0.0000000000000000000, -1.000000000000000000, -0.0000000000000000000 ) ) ;
#305 = DIRECTION ( 'NONE',  ( 0.0000000000000000000, 0.0000000000000000000, -1.000000000000000000 ) ) ;
#306 = EDGE_LOOP ( 'NONE', ( #322 ) ) ;
#307 = AXIS2_PLACEMENT_3D ( 'NONE', #87, #172, #206 ) ;
#308 = CARTESIAN_POINT ( 'NONE',  ( 106.5000000000000000, -7.776507174585669500E-016, 0.0000000000000000000 ) ) ;
#309 = DIRECTION ( 'NONE',  ( 0.0000000000000000000, -0.0000000000000000000, 1.000000000000000000 ) ) ;
#310 = FACE_OUTER_BOUND ( 'NONE', #79, .T. ) ;
#311 = ORIENTED_EDGE ( 'NONE', *, *, #89, .T. ) ;
#312 = CARTESIAN_POINT ( 'NONE',  ( 0.0000000000000000000, -11.19999999999999900, 0.0000000000000000000 ) ) ;
#313 = DIRECTION ( 'NONE',  ( 0.0000000000000000000, 1.000000000000000000, 0.0000000000000000000 ) ) ;
#314 = FACE_OUTER_BOUND ( 'NONE', #306, .T. ) ;
#315 = CARTESIAN_POINT ( 'NONE',  ( 0.0000000000000000000, -0.8000000000000020400, 0.0000000000000000000 ) ) ;
#316 = APPLICATION_CONTEXT ( 'automotive_design' ) ;
#317 = CARTESIAN_POINT ( 'NONE',  ( 0.0000000000000000000, -11.19999999999999900, 0.0000000000000000000 ) ) ;
#318 = DIRECTION ( 'NONE',  ( 0.0000000000000000000, 0.0000000000000000000, 1.000000000000000000 ) ) ;
#319 = DIRECTION ( 'NONE',  ( 0.0000000000000000000, 0.0000000000000000000, 1.000000000000000000 ) ) ;
#320 = EDGE_CURVE ( 'NONE', #168, #168, #212, .T. ) ;
#321 = CIRCLE ( 'NONE', #307, 117.5000000000000000 ) ;
#322 = ORIENTED_EDGE ( 'NONE', *, *, #25, .F. ) ;
#323 = ORIENTED_EDGE ( 'NONE', *, *, #177, .T. ) ;
#324 = VERTEX_POINT ( 'NONE', #287 ) ;
#325 = DIRECTION ( 'NONE',  ( -0.0000000000000000000, 1.000000000000000000, -0.0000000000000000000 ) ) ;
#326 = PRODUCT ( 'BS1ISOK200219 FULLVAC', 'BS1ISOK200219 FULLVAC', '', ( #160 ) ) ;
#327 =( GEOMETRIC_REPRESENTATION_CONTEXT ( 3 ) GLOBAL_UNCERTAINTY_ASSIGNED_CONTEXT ( ( #303 ) ) GLOBAL_UNIT_ASSIGNED_CONTEXT ( ( #296, #222, #103 ) ) REPRESENTATION_CONTEXT ( 'NONE', 'WORKASPACE' ) );
#328 = EDGE_LOOP ( 'NONE', ( #187 ) ) ;
#329 = DIRECTION ( 'NONE',  ( 0.0000000000000000000, 1.000000000000000000, 0.0000000000000000000 ) ) ;
#330 = DIRECTION ( 'NONE',  ( 0.0000000000000000000, 0.0000000000000000000, 1.000000000000000000 ) ) ;
#331 = AXIS2_PLACEMENT_3D ( 'NONE', #14, #294, #44 ) ;
#332 = CYLINDRICAL_SURFACE ( 'NONE', #73, 106.5750000000000000 ) ;
#333 = DIRECTION ( 'NONE',  ( 0.0000000000000000000, -1.000000000000000000, -0.0000000000000000000 ) ) ;
#334 = EDGE_LOOP ( 'NONE', ( #19 ) ) ;
#335 = CARTESIAN_POINT ( 'NONE',  ( 0.0000000000000000000, -6.000000000000040900, -106.5750000000000000 ) ) ;
#336 = EDGE_LOOP ( 'NONE', ( #238 ) ) ;
#337 = DIRECTION ( 'NONE',  ( 0.0000000000000000000, 1.000000000000000000, 0.0000000000000000000 ) ) ;
#338 = CARTESIAN_POINT ( 'NONE',  ( 0.0000000000000000000, -12.00000000000000000, 117.5000000000000000 ) ) ;
#339 = APPLICATION_PROTOCOL_DEFINITION ( 'draft international standard', 'automotive_design', 1998, #316 ) ;
#340 = CARTESIAN_POINT ( 'NONE',  ( 0.0000000000000000000, 303.4198769408944300, 0.0000000000000000000 ) ) ;
#341 = CIRCLE ( 'NONE', #52, 107.5749999999999500 ) ;
#342 = COLOUR_RGB ( '',0.7921568627450980000, 0.8196078431372548800, 0.9333333333333333500 ) ;
#343 = AXIS2_PLACEMENT_3D ( 'NONE', #68, #266, #100 ) ;
#344 = FACE_OUTER_BOUND ( 'NONE', #11, .T. ) ;
#345 = AXIS2_PLACEMENT_3D ( 'NONE', #88, #256, #145 ) ;
#346 = FACE_OUTER_BOUND ( 'NONE', #276, .T. ) ;
#347 = ORIENTED_EDGE ( 'NONE', *, *, #158, .T. ) ;
#348 = AXIS2_PLACEMENT_3D ( 'NONE', #223, #250, #53 ) ;
#349 = ADVANCED_FACE ( 'NONE', ( #299, #189 ), #6, .T. ) ;
#350 = CIRCLE ( 'NONE', #261, 117.5000000000000000 ) ;
#351 = CIRCLE ( 'NONE', #75, 109.7500000000000300 ) ;
#352 = EDGE_LOOP ( 'NONE', ( #137 ) ) ;
#353 = VERTEX_POINT ( 'NONE', #338 ) ;
#354 = ORIENTED_EDGE ( 'NONE', *, *, #38, .T. ) ;
ENDSEC;
END-ISO-10303-21;
